relax

hon da co don

Tuesday, September 8, 2009 comments: 1

Hợp âm, bản guitar tab của bản nhạc "hon da co don" - vandien.
Các phiên bản guitar tab: Phiên bản #1

Bạn đang xem phiên bản guitartab #1 được gửi bởi bạn doiemchieuthu7.
hon da co don


C Gm6 Am
||-------------0---------|------------0---------|----------------------|
||---1--------------3----|--3---------3---------|--1---------1----3----|
||*-------0--------------|-------0---------0----|------------2---------|
||*----------------------|----------------------|-------2--------------|
||---3-------------------|----------------------|--0-------------------|
||-----------------------|--3-------------------|----------------------|


G7 F C
------------1---------|-------------1---------|------------0---------|
--0---------0---------|----------1-------1----|--1--------------1/---|
-------0---------0----|-------2---------------|-------0--------------|
----------------------|--3--------------------|----------------------|
----------------------|-----------------------|--3-------------------|
--3-------------------|-----------------------|----------------------|


G C C
---------------------|--------------0--------|------------0---------|
--0--------1h---3----|--1---------1----------|--1---------1----3----|
---------------------|-------0---------------|-------0---------0----|
---------------------|-----------------------|----------------------|
---------------------|--3--------------------|--3-------------------|
--3------------------|-----------------------|----------------------|


Gm6 Am G7
------------0---------|----------------------|------------1---------|
--3---------3---------|--1---------1----3----|--0---------0---------|
-------0---------0----|------------2---------|-------0---------0----|
----------------------|-------2---------2----|----------------------|
----------------------|--0-------------------|----------------------|
--3-------------------|----------------------|--3-------------------|


F C F
------------1---------|------------0---------|------------1---------|
------------1---------|--1---------1---------|--1---------1---------|
-------2---------2----|-------0---------0----|-------2---------2----|
--3-------------------|----------------------|--3-------------------|
----------------------|--3-------------------|----------------------|
----------------------|----------------------|----------------------|


G C Gm6
------------3---------|------------0---------|------------0---------|
--3--------------3----|--1---------1----3----|--3---------3---------|
-------0--------------|-------0---------0----|-------0---------0----|
----------------------|----------------------|----------------------|
----------------------|--3-------------------|----------------------|
--3-------------------|----------------------|--3-------------------|


Am G7 F
----------------------|------------1---------|------------1---------|
--1---------1----3----|--0---------0---------|------------1---------|
------------2---------|-------0---------0----|-------2---------2----|
-------2---------2----|----------------------|--3-------------------|
--0-------------------|----------------------|----------------------|
----------------------|--3-------------------|----------------------|


C G7 2x F
------------0---------|------------1----------||--1--------1---------|
--1--------------1/---|--0---------0----------||--1--------1---------|
-------0--------------|-------0---------0----*||--2-------------2----|
----------------------|----------------------*||--3------------------|
--3-------------------|-----------------------||--3------------------|
----------------------|--3--------------------||---------------------|


C G7 C
------------0---------|------------1---------|------------0---------|
--1--------------1/---|--0---------0---------|--1--------------3----|
-------0--------------|-------0---------0----|-------0--------------|
----------------------|----------------------|----------------------|
--3-------------------|----------------------|--3-------------------|
----------------------|--3-------------------|----------------------|


Gm6 Am G7
------------0---------|----------------------|------------1---------|
--3---------3---------|--1---------1----3----|--0---------0---------|
-------0---------0----|------------2---------|-------0---------0----|
----------------------|-------2--------------|----------------------|
----------------------|--0-------------------|----------------------|
--3-------------------|----------------------|--3-------------------|


F C Gm6
-------------1----------|-------------0---------|----------------------|
----------1-------1-----|--1-------1-------1/---|--0----0----1h---3----|
-------2-------------2--|-------0---------------|----------------------|
--3---------------------|-----------------------|----------------------|
------------------------|--3--------------------|----------------------|
------------------------|-----------------------|--3----3--------------|


C
--0----------------|--------------||
--1----------------|--------------||
--0----------------|--------------||
--2----------------|--------------||
--3----------------|--------------||
-------------------|--------------||


guitar15

comments: 1

Post a Comment